999
dxfrw 0.5.10
0
SECTION
2
HEADER
9
$ACADVER
1
AC1021
9
$HANDSEED
5
20000
9
$DWGCODEPAGE
3
ANSI_1252
9
$INSBASE
10
0
20
0
30
0
9
$EXTMIN
10
0
20
-4.07225929323e-16
30
0
9
$EXTMAX
10
161.7
20
81.5
30
0
9
$LIMMIN
10
0
20
0
9
$LIMMAX
10
420
20
297
9
$ORTHOMODE
70
0
9
$LTSCALE
40
1
9
$TEXTSTYLE
7
STANDARD
9
$CLAYER
8
0
9
$DIMASZ
40
2.5
9
$DIMLFAC
40
1
9
$DIMSCALE
40
1
9
$DIMEXO
40
0.625
9
$DIMEXE
40
1.25
9
$DIMTXT
40
2.5
9
$DIMTSZ
40
0
9
$DIMAUNIT
70
0
9
$DIMADEC
70
0
9
$DIMLUNIT
70
2
9
$DIMSTYLE
2
Standard
9
$DIMGAP
40
0.625
9
$DIMTIH
70
0
9
$LUNITS
70
2
9
$LUPREC
70
4
9
$AUNITS
70
0
9
$AUPREC
70
2
9
$SPLINESEGS
70
8
9
$PINSBASE
10
0
20
0
30
0
9
$PLIMMIN
10
0
20
0
9
$PLIMMAX
10
210
20
297
9
$INSUNITS
70
0
9
$PSVPSCALE
40
0
0
ENDSEC
0
SECTION
2
CLASSES
0
ENDSEC
0
SECTION
2
TABLES
0
TABLE
2
VPORT
5
8
330
0
100
AcDbSymbolTable
70
1
0
VPORT
5
31
330
2
100
AcDbSymbolTableRecord
100
AcDbViewportTableRecord
2
*ACTIVE
70
0
10
0
20
0
11
1
21
1
12
190
22
104.625
13
0
23
0
14
10
24
10
15
10
25
10
16
0
26
0
36
1
17
0
27
0
37
0
40
221.75
41
1.77001127396
42
50
43
0
44
0
50
0
51
0
71
0
72
100
73
1
74
3
75
0
76
1
77
0
78
0
281
0
65
1
110
0
120
0
130
0
111
1
121
0
131
0
112
0
122
1
132
0
79
0
146
0
348
10020
60
7
61
5
292
1
282
1
141
0
142
0
63
250
421
3358443
0
ENDTAB
0
TABLE
2
LTYPE
5
5
330
0
100
AcDbSymbolTable
70
4
0
LTYPE
5
14
330
5
100
AcDbSymbolTableRecord
100
AcDbLinetypeTableRecord
2
ByBlock
70
0
3

72
65
73
0
40
0
0
LTYPE
5
15
330
5
100
AcDbSymbolTableRecord
100
AcDbLinetypeTableRecord
2
ByLayer
70
0
3

72
65
73
0
40
0
0
LTYPE
5
16
330
5
100
AcDbSymbolTableRecord
100
AcDbLinetypeTableRecord
2
Continuous
70
0
3
Solid line
72
65
73
0
40
0
0
LTYPE
5
32
330
5
100
AcDbSymbolTableRecord
100
AcDbLinetypeTableRecord
2
DOT
70
0
3
Dot . . . . . . . . . . . . . . . . . . . . . .
72
65
73
2
40
6.35
49
0
74
0
49
-6.35
74
0
0
LTYPE
5
33
330
5
100
AcDbSymbolTableRecord
100
AcDbLinetypeTableRecord
2
DOT2
70
0
3
Dot (.5x) .....................................
72
65
73
2
40
3.175
49
0
74
0
49
-3.175
74
0
0
LTYPE
5
34
330
5
100
AcDbSymbolTableRecord
100
AcDbLinetypeTableRecord
2
DOTX2
70
0
3
Dot (2x) .  .  .  .  .  .  .  .  .  .  .  .  .
72
65
73
2
40
12.7
49
0
74
0
49
-12.7
74
0
0
LTYPE
5
35
330
5
100
AcDbSymbolTableRecord
100
AcDbLinetypeTableRecord
2
DASHED
70
0
3
Dot . . . . . . . . . . . . . . . . . . . . . .
72
65
73
2
40
19.05
49
12.7
74
0
49
-6.35
74
0
0
LTYPE
5
36
330
5
100
AcDbSymbolTableRecord
100
AcDbLinetypeTableRecord
2
DASHED2
70
0
3
Dashed (.5x) _ _ _ _ _ _ _ _ _ _ _ _ _ _ _ _ _
72
65
73
2
40
9.525
49
6.35
74
0
49
-3.175
74
0
0
LTYPE
5
37
330
5
100
AcDbSymbolTableRecord
100
AcDbLinetypeTableRecord
2
DASHEDX2
70
0
3
Dashed (2x) ____  ____  ____  ____  ____  ___
72
65
73
2
40
38.1
49
25.4
74
0
49
-12.7
74
0
0
LTYPE
5
38
330
5
100
AcDbSymbolTableRecord
100
AcDbLinetypeTableRecord
2
DASHDOT
70
0
3
Dash dot __ . __ . __ . __ . __ . __ . __ . __
72
65
73
4
40
25.4
49
12.7
74
0
49
-6.35
74
0
49
0
74
0
49
-6.35
74
0
0
LTYPE
5
39
330
5
100
AcDbSymbolTableRecord
100
AcDbLinetypeTableRecord
2
DASHDOT2
70
0
3
Dash dot (.5x) _._._._._._._._._._._._._._._.
72
65
73
4
40
12.7
49
6.35
74
0
49
-3.175
74
0
49
0
74
0
49
-3.175
74
0
0
LTYPE
5
3A
330
5
100
AcDbSymbolTableRecord
100
AcDbLinetypeTableRecord
2
DASHDOTX2
70
0
3
Dash dot (2x) ____  .  ____  .  ____  .  ___
72
65
73
4
40
50.8
49
25.4
74
0
49
-12.7
74
0
49
0
74
0
49
-12.7
74
0
0
LTYPE
5
3B
330
5
100
AcDbSymbolTableRecord
100
AcDbLinetypeTableRecord
2
DIVIDE
70
0
3
Divide ____ . . ____ . . ____ . . ____ . . ____
72
65
73
6
40
31.75
49
12.7
74
0
49
-6.35
74
0
49
0
74
0
49
-6.35
74
0
49
0
74
0
49
-6.35
74
0
0
LTYPE
5
3C
330
5
100
AcDbSymbolTableRecord
100
AcDbLinetypeTableRecord
2
DIVIDE2
70
0
3
Divide (.5x) __..__..__..__..__..__..__..__.._
72
65
73
6
40
15.875
49
6.35
74
0
49
-3.175
74
0
49
0
74
0
49
-3.175
74
0
49
0
74
0
49
-3.175
74
0
0
LTYPE
5
3D
330
5
100
AcDbSymbolTableRecord
100
AcDbLinetypeTableRecord
2
DIVIDEX2
70
0
3
Divide (2x) ________  .  .  ________  .  .  _
72
65
73
6
40
63.5
49
25.4
74
0
49
-12.7
74
0
49
0
74
0
49
-12.7
74
0
49
0
74
0
49
-12.7
74
0
0
LTYPE
5
3E
330
5
100
AcDbSymbolTableRecord
100
AcDbLinetypeTableRecord
2
BORDER
70
0
3
Border __ __ . __ __ . __ __ . __ __ . __ __ .
72
65
73
6
40
44.45
49
12.7
74
0
49
-6.35
74
0
49
12.7
74
0
49
-6.35
74
0
49
0
74
0
49
-6.35
74
0
0
LTYPE
5
3F
330
5
100
AcDbSymbolTableRecord
100
AcDbLinetypeTableRecord
2
BORDER2
70
0
3
Border (.5x) __.__.__.__.__.__.__.__.__.__.__.
72
65
73
6
40
22.225
49
6.35
74
0
49
-3.175
74
0
49
6.35
74
0
49
-3.175
74
0
49
0
74
0
49
-3.175
74
0
0
LTYPE
5
40
330
5
100
AcDbSymbolTableRecord
100
AcDbLinetypeTableRecord
2
BORDERX2
70
0
3
Border (2x) ____  ____  .  ____  ____  .  ___
72
65
73
6
40
88.9
49
25.4
74
0
49
-12.7
74
0
49
25.4
74
0
49
-12.7
74
0
49
0
74
0
49
-12.7
74
0
0
LTYPE
5
41
330
5
100
AcDbSymbolTableRecord
100
AcDbLinetypeTableRecord
2
CENTER
70
0
3
Center ____ _ ____ _ ____ _ ____ _ ____ _ ____
72
65
73
4
40
50.8
49
31.75
74
0
49
-6.35
74
0
49
6.35
74
0
49
-6.35
74
0
0
LTYPE
5
42
330
5
100
AcDbSymbolTableRecord
100
AcDbLinetypeTableRecord
2
CENTER2
70
0
3
Center (.5x) ___ _ ___ _ ___ _ ___ _ ___ _ ___
72
65
73
4
40
28.575
49
19.05
74
0
49
-3.175
74
0
49
3.175
74
0
49
-3.175
74
0
0
LTYPE
5
43
330
5
100
AcDbSymbolTableRecord
100
AcDbLinetypeTableRecord
2
CENTERX2
70
0
3
Center (2x) ________  __  ________  __  _____
72
65
73
4
40
101.6
49
63.5
74
0
49
-12.7
74
0
49
12.7
74
0
49
-12.7
74
0
0
ENDTAB
0
TABLE
2
LAYER
5
2
330
0
100
AcDbSymbolTable
70
1
0
LAYER
5
10
330
2
100
AcDbSymbolTableRecord
100
AcDbLayerTableRecord
2
0
70
0
62
7
6
CONTINUOUS
370
-3
390
F
0
ENDTAB
0
TABLE
2
STYLE
5
3
330
0
100
AcDbSymbolTable
70
3
0
STYLE
5
44
330
2
100
AcDbSymbolTableRecord
100
AcDbTextStyleTableRecord
2
Standard
70
0
40
0
41
1
50
0
71
0
42
1
3
txt
4

0
ENDTAB
0
TABLE
2
VIEW
5
6
330
0
100
AcDbSymbolTable
70
0
0
ENDTAB
0
TABLE
2
UCS
5
7
330
0
100
AcDbSymbolTable
70
0
0
ENDTAB
0
TABLE
2
APPID
5
9
330
0
100
AcDbSymbolTable
70
1
0
APPID
5
12
330
9
100
AcDbSymbolTableRecord
100
AcDbRegAppTableRecord
2
ACAD
70
0
0
ENDTAB
0
TABLE
2
DIMSTYLE
5
A
330
0
100
AcDbSymbolTable
70
1
100
AcDbDimStyleTable
71
1
0
DIMSTYLE
105
45
330
A
100
AcDbSymbolTableRecord
100
AcDbDimStyleTableRecord
2
Standard
70
0
40
1
41
2.5
42
0.625
43
0.38
44
1.25
45
0
46
0
47
0
48
0
140
2.5
141
0.09
142
0
143
25.4
144
1
145
0
146
1
147
0.625
148
0
71
0
72
0
73
0
74
1
75
0
76
0
77
0
78
0
79
0
170
0
171
2
172
0
173
0
174
0
175
0
176
0
177
0
178
0
179
0
271
4
272
4
273
2
274
2
275
0
276
0
277
2
278
46
279
0
280
0
281
0
282
0
283
1
284
0
285
0
286
0
288
0
289
3
340
Standard
341

371
-2
372
-2
0
ENDTAB
0
TABLE
2
BLOCK_RECORD
5
1
330
0
100
AcDbSymbolTable
70
2
0
BLOCK_RECORD
5
1F
330
1
100
AcDbSymbolTableRecord
100
AcDbBlockTableRecord
2
*Model_Space
70
0
280
1
281
0
0
BLOCK_RECORD
5
1E
330
1
100
AcDbSymbolTableRecord
100
AcDbBlockTableRecord
2
*Paper_Space
70
0
280
1
281
0
0
BLOCK_RECORD
5
46
330
1
100
AcDbSymbolTableRecord
100
AcDbBlockTableRecord
2
SKETCH
70
0
280
1
281
0
0
ENDTAB
0
ENDSEC
0
SECTION
2
BLOCKS
0
BLOCK
5
20
330
1F
100
AcDbEntity
8
0
100
AcDbBlockBegin
2
*Model_Space
70
0
10
0
20
0
30
0
3
*Model_Space
1

0
ENDBLK
5
21
330
1F
100
AcDbEntity
8
0
100
AcDbBlockEnd
0
BLOCK
5
1C
330
1B
100
AcDbEntity
8
0
100
AcDbBlockBegin
2
*Paper_Space
70
0
10
0
20
0
30
0
3
*Paper_Space
1

0
ENDBLK
5
1D
330
1F
100
AcDbEntity
8
0
100
AcDbBlockEnd
0
BLOCK
5
47
330
46
100
AcDbEntity
8
0
100
AcDbBlockBegin
2
SKETCH
70
0
10
0
20
0
3
SKETCH
1

0
LWPOLYLINE
5
49
100
AcDbEntity
8
0
6
ByLayer
62
7
370
-1
100
AcDbPolyline
90
66
70
1
43
0
10
6
20
38.425
10
16.3
20
38.425
42
1
10
16.3
20
40.825
10
6
20
40.825
10
6
20
62
42
0.414213562373
10
4.9
20
63.1
10
0
20
63.1
10
0
20
73.5
10
7.8
20
78.95
10
10
20
78.95
10
10
20
75.6
42
1
10
10
20
73.2
10
28.7
20
73.2
42
1
10
28.7
20
75.6
10
28.7
20
78.95
10
30.1
20
78.95
42
0.414213562373
10
31.2
20
80.05
10
31.2
20
81.5
10
36.7
20
81.5
10
36.7
20
67.9
42
1
10
39.1
20
67.9
10
52.7
20
67.9
10
52.7
20
65.2
42
1
10
52.7
20
62.8
10
124.9
20
62.8
10
124.9
20
61.3
42
1
10
124.9
20
58.9
10
126.2
20
58.9
10
126.2
20
56.7
42
0.414213562373
10
125.2
20
55.7
10
125.2
20
23.5
42
0.414213562373
10
126.2
20
22.5
10
126.2
20
18.5
10
125.4
20
18.5
42
0.414213562373
10
124.2
20
17.3
10
124.2
20
16.6
42
0.414213562373
10
125.4
20
15.4
10
134.1
20
15.4
42
0.414213562373
10
135.3
20
16.6
10
135.3
20
16.8
10
161.7
20
16.8
10
159.123378536
20
14.2233785356
42
1
10
157.992007686
20
13.0920076857
10
159.884015371
20
11.2
42
0.334045126307
10
156.5
20
6.7
10
155.6
20
6.7
42
0.414213562373
10
154.6
20
5.7
10
154.6
20
4.2
42
0.414213562373
10
155.6
20
3.2
10
156.1
20
3.2
10
156.1
20
1.3
10
149.300000038
20
1.3
42
0.414213570999
10
148
20
1.11401160163e-15
10
142.4
20
0
10
142.4
20
3
42
0.414213562373
10
141.3
20
4.1
10
107.4
20
4.1
42
0.414213562373
10
106.3
20
3
10
106.3
20
0
10
19.9
20
-4.07225929323e-16
42
0.414213583083
10
18.5999999081
20
1.3
10
12.4999996797
20
1.3
42
0.414213490199
10
11.2
20
3.14635664827e-16
10
6
20
0
10
6
20
24.4
42
0.485431451105
10
6
20
29.9
0
CIRCLE
5
4A
100
AcDbEntity
8
0
6
ByLayer
62
7
370
-1
100
AcDbCircle
10
29.55
20
69.25
40
1.1
0
CIRCLE
5
4B
100
AcDbEntity
8
0
6
ByLayer
62
7
370
-1
100
AcDbCircle
10
32.05
20
18.8
40
1.1
0
CIRCLE
5
4C
100
AcDbEntity
8
0
6
ByLayer
62
7
370
-1
100
AcDbCircle
10
120.9
20
21.6
40
1.1
0
ENDBLK
5
48
330
46
100
AcDbEntity
8
0
100
AcDbBlockEnd
0
ENDSEC
0
SECTION
2
ENTITIES
0
CIRCLE
5
4D
100
AcDbEntity
8
0
6
ByLayer
62
7
370
-1
100
AcDbCircle
10
29.55
20
69.25
40
1.1
0
CIRCLE
5
4E
100
AcDbEntity
8
0
6
ByLayer
62
7
370
-1
100
AcDbCircle
10
32.05
20
18.8
40
1.1
0
CIRCLE
5
4F
100
AcDbEntity
8
0
6
ByLayer
62
7
370
-1
100
AcDbCircle
10
120.9
20
21.6
40
1.1
0
LINE
5
50
100
AcDbEntity
8
0
6
ByLayer
62
7
370
-1
100
AcDbLine
10
6
20
38.425
11
16.3
21
38.425
0
ARC
5
51
100
AcDbEntity
8
0
6
ByLayer
62
7
370
-1
100
AcDbCircle
10
16.3
20
39.625
40
1.2
100
AcDbArc
50
270
51
90
0
LINE
5
52
100
AcDbEntity
8
0
6
ByLayer
62
7
370
-1
100
AcDbLine
10
16.3
20
40.825
11
6
21
40.825
0
LINE
5
53
100
AcDbEntity
8
0
6
ByLayer
62
7
370
-1
100
AcDbLine
10
6
20
40.825
11
6
21
62
0
ARC
5
54
100
AcDbEntity
8
0
6
ByLayer
62
7
370
-1
100
AcDbCircle
10
4.9
20
62
40
1.1
100
AcDbArc
50
9.26177523242e-12
51
90
0
LINE
5
55
100
AcDbEntity
8
0
6
ByLayer
62
7
370
-1
100
AcDbLine
10
4.9
20
63.1
11
0
21
63.1
0
LINE
5
56
100
AcDbEntity
8
0
6
ByLayer
62
7
370
-1
100
AcDbLine
10
0
20
63.1
11
0
21
73.5
0
LINE
5
57
100
AcDbEntity
8
0
6
ByLayer
62
7
370
-1
100
AcDbLine
10
0
20
73.5
11
7.8
21
78.95
0
LINE
5
58
100
AcDbEntity
8
0
6
ByLayer
62
7
370
-1
100
AcDbLine
10
7.8
20
78.95
11
10
21
78.95
0
LINE
5
59
100
AcDbEntity
8
0
6
ByLayer
62
7
370
-1
100
AcDbLine
10
10
20
78.95
11
10
21
75.6
0
ARC
5
5A
100
AcDbEntity
8
0
6
ByLayer
62
7
370
-1
100
AcDbCircle
10
10
20
74.4
40
1.2
100
AcDbArc
50
90
51
270
0
LINE
5
5B
100
AcDbEntity
8
0
6
ByLayer
62
7
370
-1
100
AcDbLine
10
10
20
73.2
11
28.7
21
73.2
0
ARC
5
5C
100
AcDbEntity
8
0
6
ByLayer
62
7
370
-1
100
AcDbCircle
10
28.7
20
74.4
40
1.2
100
AcDbArc
50
270
51
90
0
LINE
5
5D
100
AcDbEntity
8
0
6
ByLayer
62
7
370
-1
100
AcDbLine
10
28.7
20
75.6
11
28.7
21
78.95
0
LINE
5
5E
100
AcDbEntity
8
0
6
ByLayer
62
7
370
-1
100
AcDbLine
10
28.7
20
78.95
11
30.1
21
78.95
0
ARC
5
5F
100
AcDbEntity
8
0
6
ByLayer
62
7
370
-1
100
AcDbCircle
10
30.1
20
80.05
40
1.1
100
AcDbArc
50
270
51
360
0
LINE
5
60
100
AcDbEntity
8
0
6
ByLayer
62
7
370
-1
100
AcDbLine
10
31.2
20
80.05
11
31.2
21
81.5
0
LINE
5
61
100
AcDbEntity
8
0
6
ByLayer
62
7
370
-1
100
AcDbLine
10
31.2
20
81.5
11
36.7
21
81.5
0
LINE
5
62
100
AcDbEntity
8
0
6
ByLayer
62
7
370
-1
100
AcDbLine
10
36.7
20
81.5
11
36.7
21
67.9
0
ARC
5
63
100
AcDbEntity
8
0
6
ByLayer
62
7
370
-1
100
AcDbCircle
10
37.9
20
67.9
40
1.2
100
AcDbArc
50
180
51
0
0
LINE
5
64
100
AcDbEntity
8
0
6
ByLayer
62
7
370
-1
100
AcDbLine
10
39.1
20
67.9
11
52.7
21
67.9
0
LINE
5
65
100
AcDbEntity
8
0
6
ByLayer
62
7
370
-1
100
AcDbLine
10
52.7
20
67.9
11
52.7
21
65.2
0
ARC
5
66
100
AcDbEntity
8
0
6
ByLayer
62
7
370
-1
100
AcDbCircle
10
52.7
20
64
40
1.2
100
AcDbArc
50
90
51
270
0
LINE
5
67
100
AcDbEntity
8
0
6
ByLayer
62
7
370
-1
100
AcDbLine
10
52.7
20
62.8
11
124.9
21
62.8
0
LINE
5
68
100
AcDbEntity
8
0
6
ByLayer
62
7
370
-1
100
AcDbLine
10
124.9
20
62.8
11
124.9
21
61.3
0
ARC
5
69
100
AcDbEntity
8
0
6
ByLayer
62
7
370
-1
100
AcDbCircle
10
124.9
20
60.1
40
1.2
100
AcDbArc
50
90
51
270
0
LINE
5
6A
100
AcDbEntity
8
0
6
ByLayer
62
7
370
-1
100
AcDbLine
10
124.9
20
58.9
11
126.2
21
58.9
0
LINE
5
6B
100
AcDbEntity
8
0
6
ByLayer
62
7
370
-1
100
AcDbLine
10
126.2
20
58.9
11
126.2
21
56.7
0
ARC
5
6C
100
AcDbEntity
8
0
6
ByLayer
62
7
370
-1
100
AcDbCircle
10
126.2
20
55.7
40
1
100
AcDbArc
50
90
51
180
0
LINE
5
6D
100
AcDbEntity
8
0
6
ByLayer
62
7
370
-1
100
AcDbLine
10
125.2
20
55.7
11
125.2
21
23.5
0
ARC
5
6E
100
AcDbEntity
8
0
6
ByLayer
62
7
370
-1
100
AcDbCircle
10
126.2
20
23.5
40
1
100
AcDbArc
50
180
51
270
0
LINE
5
6F
100
AcDbEntity
8
0
6
ByLayer
62
7
370
-1
100
AcDbLine
10
126.2
20
22.5
11
126.2
21
18.5
0
LINE
5
70
100
AcDbEntity
8
0
6
ByLayer
62
7
370
-1
100
AcDbLine
10
126.2
20
18.5
11
125.4
21
18.5
0
ARC
5
71
100
AcDbEntity
8
0
6
ByLayer
62
7
370
-1
100
AcDbCircle
10
125.4
20
17.3
40
1.2
100
AcDbArc
50
90
51
180
0
LINE
5
72
100
AcDbEntity
8
0
6
ByLayer
62
7
370
-1
100
AcDbLine
10
124.2
20
17.3
11
124.2
21
16.6
0
ARC
5
73
100
AcDbEntity
8
0
6
ByLayer
62
7
370
-1
100
AcDbCircle
10
125.4
20
16.6
40
1.2
100
AcDbArc
50
180
51
270
0
LINE
5
74
100
AcDbEntity
8
0
6
ByLayer
62
7
370
-1
100
AcDbLine
10
125.4
20
15.4
11
134.1
21
15.4
0
ARC
5
75
100
AcDbEntity
8
0
6
ByLayer
62
7
370
-1
100
AcDbCircle
10
134.1
20
16.6
40
1.2
100
AcDbArc
50
270
51
360
0
LINE
5
76
100
AcDbEntity
8
0
6
ByLayer
62
7
370
-1
100
AcDbLine
10
135.3
20
16.6
11
135.3
21
16.8
0
LINE
5
77
100
AcDbEntity
8
0
6
ByLayer
62
7
370
-1
100
AcDbLine
10
135.3
20
16.8
11
161.7
21
16.8
0
LINE
5
78
100
AcDbEntity
8
0
6
ByLayer
62
7
370
-1
100
AcDbLine
10
161.7
20
16.8
11
159.123378536
21
14.2233785356
0
ARC
5
79
100
AcDbEntity
8
0
6
ByLayer
62
7
370
-1
100
AcDbCircle
10
158.557693111
20
13.6576931107
40
0.800000000036
100
AcDbArc
50
44.9999999975
51
224.999999997
0
LINE
5
7A
100
AcDbEntity
8
0
6
ByLayer
62
7
370
-1
100
AcDbLine
10
157.992007686
20
13.0920076857
11
159.884015371
21
11.2
0
ARC
5
7B
100
AcDbEntity
8
0
6
ByLayer
62
7
370
-1
100
AcDbCircle
10
161.184015371
20
6.7000000003
40
4.68401537122
100
AcDbArc
50
106.113418237
51
180.000000004
0
LINE
5
7C
100
AcDbEntity
8
0
6
ByLayer
62
7
370
-1
100
AcDbLine
10
156.5
20
6.7
11
155.6
21
6.7
0
ARC
5
7D
100
AcDbEntity
8
0
6
ByLayer
62
7
370
-1
100
AcDbCircle
10
155.6
20
5.7
40
1
100
AcDbArc
50
90
51
180
0
LINE
5
7E
100
AcDbEntity
8
0
6
ByLayer
62
7
370
-1
100
AcDbLine
10
154.6
20
5.7
11
154.6
21
4.2
0
ARC
5
7F
100
AcDbEntity
8
0
6
ByLayer
62
7
370
-1
100
AcDbCircle
10
155.6
20
4.2
40
1
100
AcDbArc
50
180
51
270
0
LINE
5
80
100
AcDbEntity
8
0
6
ByLayer
62
7
370
-1
100
AcDbLine
10
155.6
20
3.2
11
156.1
21
3.2
0
LINE
5
81
100
AcDbEntity
8
0
6
ByLayer
62
7
370
-1
100
AcDbLine
10
156.1
20
3.2
11
156.1
21
1.3
0
LINE
5
82
100
AcDbEntity
8
0
6
ByLayer
62
7
370
-1
100
AcDbLine
10
156.1
20
1.3
11
149.300000038
21
1.3
0
ARC
5
83
100
AcDbEntity
8
0
6
ByLayer
62
7
370
-1
100
AcDbCircle
10
149.3
20
1.42939771131e-10
40
1.29999999986
100
AcDbArc
50
89.9999983189
51
180.000000006
0
LINE
5
84
100
AcDbEntity
8
0
6
ByLayer
62
7
370
-1
100
AcDbLine
10
148
20
1.11401160163e-15
11
142.4
21
0
0
LINE
5
85
100
AcDbEntity
8
0
6
ByLayer
62
7
370
-1
100
AcDbLine
10
142.4
20
0
11
142.4
21
3
0
ARC
5
86
100
AcDbEntity
8
0
6
ByLayer
62
7
370
-1
100
AcDbCircle
10
141.3
20
3
40
1.1
100
AcDbArc
50
9.15999748261e-12
51
90
0
LINE
5
87
100
AcDbEntity
8
0
6
ByLayer
62
7
370
-1
100
AcDbLine
10
141.3
20
4.1
11
107.4
21
4.1
0
ARC
5
88
100
AcDbEntity
8
0
6
ByLayer
62
7
370
-1
100
AcDbCircle
10
107.4
20
3
40
1.1
100
AcDbArc
50
90
51
180
0
LINE
5
89
100
AcDbEntity
8
0
6
ByLayer
62
7
370
-1
100
AcDbLine
10
106.3
20
3
11
106.3
21
0
0
LINE
5
8A
100
AcDbEntity
8
0
6
ByLayer
62
7
370
-1
100
AcDbLine
10
106.3
20
0
11
19.9
21
0
0
ARC
5
8B
100
AcDbEntity
8
0
6
ByLayer
62
7
370
-1
100
AcDbCircle
10
18.6
20
1.02264863244e-11
40
1.29999999999
100
AcDbArc
50
360
51
90.0000040508
0
LINE
5
8C
100
AcDbEntity
8
0
6
ByLayer
62
7
370
-1
100
AcDbLine
10
18.5999999081
20
1.3
11
12.4999996797
21
1.3
0
ARC
5
8D
100
AcDbEntity
8
0
6
ByLayer
62
7
370
-1
100
AcDbCircle
10
12.5
20
-2.15377715662e-11
40
1.30000000002
100
AcDbArc
50
90.0000141177
51
179.999999999
0
LINE
5
8E
100
AcDbEntity
8
0
6
ByLayer
62
7
370
-1
100
AcDbLine
10
11.2
20
3.14635664827e-16
11
6
21
0
0
LINE
5
8F
100
AcDbEntity
8
0
6
ByLayer
62
7
370
-1
100
AcDbLine
10
6
20
0
11
6
21
24.4
0
ARC
5
90
100
AcDbEntity
8
0
6
ByLayer
62
7
370
-1
100
AcDbCircle
10
3.83493649054
20
27.15
40
3.5
100
AcDbArc
50
308.213210702
51
51.7867892983
0
LINE
5
91
100
AcDbEntity
8
0
6
ByLayer
62
7
370
-1
100
AcDbLine
10
6
20
29.9
11
6
21
38.425
0
ENDSEC
0
SECTION
2
OBJECTS
0
DICTIONARY
5
C
330
0
100
AcDbDictionary
281
1
3
ACAD_GROUP
350
D
0
DICTIONARY
5
D
330
C
100
AcDbDictionary
281
1
0
ENDSEC
0
EOF
